  0
SECTION
  2
HEADER
  9
$ACADVER
  1
AC1015
  9
$ACADMAINTVER
 70
     6
  9
$DWGCODEPAGE
  3
ANSI_1254
  9
$INSBASE
 10
0.0
 20
0.0
 30
0.0
  9
$EXTMIN
 10
0.0
 20
0.0
 30
0.0
  9
$EXTMAX
 10
279.4
 20
215.9
 30
0.0
  9
$LIMMIN
 10
0.0
 20
0.0
  9
$LIMMAX
 10
279.4
 20
215.9
  9
$ORTHOMODE
 70
     0
  9
$REGENMODE
 70
     1
  9
$FILLMODE
 70
     1
  9
$QTEXTMODE
 70
     0
  9
$MIRRTEXT
 70
     1
  9
$LTSCALE
 40
1.0
  9
$ATTMODE
 70
     1
  9
$TEXTSIZE
 40
3.5
  9
$TRACEWID
 40
1.0
  9
$TEXTSTYLE
  7
Standard
  9
$CLAYER
  8
0
  9
$CELTYPE
  6
ByLayer
  9
$CECOLOR
 62
   256
  9
$CELTSCALE
 40
1.0
  9
$DISPSILH
 70
     0
  9
$DIMSCALE
 40
1.0
  9
$DIMASZ
 40
3.5
  9
$DIMEXO
 40
1.0
  9
$DIMDLI
 40
3.75
  9
$DIMRND
 40
0.0
  9
$DIMDLE
 40
0.0
  9
$DIMEXE
 40
1.0
  9
$DIMTP
 40
0.0
  9
$DIMTM
 40
0.0
  9
$DIMTXT
 40
3.5
  9
$DIMCEN
 40
2.5
  9
$DIMTSZ
 40
0.0
  9
$DIMTOL
 70
     0
  9
$DIMLIM
 70
     0
  9
$DIMTIH
 70
     1
  9
$DIMTOH
 70
     1
  9
$DIMSE1
 70
     0
  9
$DIMSE2
 70
     0
  9
$DIMTAD
 70
     1
  9
$DIMZIN
 70
     0
  9
$DIMBLK
  1

  9
$DIMASO
 70
     1
  9
$DIMSHO
 70
     1
  9
$DIMPOST
  1

  9
$DIMAPOST
  1

  9
$DIMALT
 70
     0
  9
$DIMALTD
 70
     3
  9
$DIMALTF
 40
0.0393700787
  9
$DIMLFAC
 40
1.0
  9
$DIMTOFL
 70
     1
  9
$DIMTVP
 40
0.0
  9
$DIMTIX
 70
     0
  9
$DIMSOXD
 70
     0
  9
$DIMSAH
 70
     0
  9
$DIMBLK1
  1

  9
$DIMBLK2
  1

  9
$DIMSTYLE
  2
ISO-25
  9
$DIMCLRD
 70
     0
  9
$DIMCLRE
 70
     0
  9
$DIMCLRT
 70
     0
  9
$DIMTFAC
 40
1.0
  9
$DIMGAP
 40
1.524
  9
$DIMJUST
 70
     0
  9
$DIMSD1
 70
     0
  9
$DIMSD2
 70
     0
  9
$DIMTOLJ
 70
     0
  9
$DIMTZIN
 70
     0
  9
$DIMALTZ
 70
     0
  9
$DIMALTTZ
 70
     0
  9
$DIMUPT
 70
     0
  9
$DIMDEC
 70
     2
  9
$DIMTDEC
 70
     2
  9
$DIMALTU
 70
     2
  9
$DIMALTTD
 70
     3
  9
$DIMTXSTY
  7
Standard
  9
$DIMAUNIT
 70
     0
  9
$DIMADEC
 70
     2
  9
$DIMALTRND
 40
0.0
  9
$DIMAZIN
 70
     0
  9
$DIMDSEP
 70
    44
  9
$DIMATFIT
 70
     3
  9
$DIMFRAC
 70
     0
  9
$DIMLDRBLK
  1

  9
$DIMLUNIT
 70
     2
  9
$DIMLWD
 70
    -2
  9
$DIMLWE
 70
    -2
  9
$DIMTMOVE
 70
     0
  9
$LUNITS
 70
     2
  9
$LUPREC
 70
     2
  9
$SKETCHINC
 40
1.0
  9
$FILLETRAD
 40
10.0
  9
$AUNITS
 70
     0
  9
$AUPREC
 70
     2
  9
$MENU
  1
.
  9
$ELEVATION
 40
0.0
  9
$PELEVATION
 40
0.0
  9
$THICKNESS
 40
0.0
  9
$LIMCHECK
 70
     0
  9
$CHAMFERA
 40
0.0
  9
$CHAMFERB
 40
0.0
  9
$CHAMFERC
 40
0.0
  9
$CHAMFERD
 40
0.0
  9
$SKPOLY
 70
     0
  9
$TDCREATE
 40
2458985.698951123
  9
$TDUCREATE
 40
2458985.573951123
  9
$TDUPDATE
 40
2458985.698951424
  9
$TDUUPDATE
 40
2458985.573951424
  9
$TDINDWG
 40
0.0000000116
  9
$TDUSRTIMER
 40
0.0000000116
  9
$USRTIMER
 70
     1
  9
$ANGBASE
 50
0.0
  9
$ANGDIR
 70
     0
  9
$PDMODE
 70
     0
  9
$PDSIZE
 40
-1.0
  9
$PLINEWID
 40
0.0
  9
$SPLFRAME
 70
     0
  9
$SPLINETYPE
 70
     6
  9
$SPLINESEGS
 70
     8
  9
$HANDSEED
  5
EB
  9
$SURFTAB1
 70
     6
  9
$SURFTAB2
 70
     6
  9
$SURFTYPE
 70
     6
  9
$SURFU
 70
     6
  9
$SURFV
 70
     6
  9
$UCSBASE
  2

  9
$UCSNAME
  2

  9
$UCSORG
 10
0.0
 20
0.0
 30
0.0
  9
$UCSXDIR
 10
1.0
 20
0.0
 30
0.0
  9
$UCSYDIR
 10
0.0
 20
1.0
 30
0.0
  9
$UCSORTHOREF
  2

  9
$UCSORTHOVIEW
 70
     0
  9
$UCSORGTOP
 10
0.0
 20
0.0
 30
0.0
  9
$UCSORGBOTTOM
 10
0.0
 20
0.0
 30
0.0
  9
$UCSORGLEFT
 10
0.0
 20
0.0
 30
0.0
  9
$UCSORGRIGHT
 10
0.0
 20
0.0
 30
0.0
  9
$UCSORGFRONT
 10
0.0
 20
0.0
 30
0.0
  9
$UCSORGBACK
 10
0.0
 20
0.0
 30
0.0
  9
$PUCSBASE
  2

  9
$PUCSNAME
  2

  9
$PUCSORG
 10
0.0
 20
0.0
 30
0.0
  9
$PUCSXDIR
 10
1.0
 20
0.0
 30
0.0
  9
$PUCSYDIR
 10
0.0
 20
1.0
 30
0.0
  9
$PUCSORTHOREF
  2

  9
$PUCSORTHOVIEW
 70
     0
  9
$PUCSORGTOP
 10
0.0
 20
0.0
 30
0.0
  9
$PUCSORGBOTTOM
 10
0.0
 20
0.0
 30
0.0
  9
$PUCSORGLEFT
 10
0.0
 20
0.0
 30
0.0
  9
$PUCSORGRIGHT
 10
0.0
 20
0.0
 30
0.0
  9
$PUCSORGFRONT
 10
0.0
 20
0.0
 30
0.0
  9
$PUCSORGBACK
 10
0.0
 20
0.0
 30
0.0
  9
$USERI1
 70
     0
  9
$USERI2
 70
     0
  9
$USERI3
 70
     0
  9
$USERI4
 70
     0
  9
$USERI5
 70
     0
  9
$USERR1
 40
0.0
  9
$USERR2
 40
0.0
  9
$USERR3
 40
0.0
  9
$USERR4
 40
0.0
  9
$USERR5
 40
0.0
  9
$WORLDVIEW
 70
     1
  9
$SHADEDGE
 70
     3
  9
$SHADEDIF
 70
    70
  9
$TILEMODE
 70
     1
  9
$MAXACTVP
 70
    64
  9
$PINSBASE
 10
0.0
 20
0.0
 30
0.0
  9
$PLIMCHECK
 70
     0
  9
$PEXTMIN
 10
1.0000000000E+20
 20
1.0000000000E+20
 30
1.0000000000E+20
  9
$PEXTMAX
 10
-1.0000000000E+20
 20
-1.0000000000E+20
 30
-1.0000000000E+20
  9
$PLIMMIN
 10
0.0
 20
0.0
  9
$PLIMMAX
 10
420.0
 20
297.0
  9
$UNITMODE
 70
     0
  9
$VISRETAIN
 70
     1
  9
$PLINEGEN
 70
     0
  9
$PSLTSCALE
 70
     1
  9
$TREEDEPTH
 70
  3020
  9
$CMLSTYLE
  2
Standard
  9
$CMLJUST
 70
     0
  9
$CMLSCALE
 40
20.0
  9
$PROXYGRAPHICS
 70
     1
  9
$MEASUREMENT
 70
     1
  9
$CELWEIGHT
370
    -1
  9
$ENDCAPS
280
     0
  9
$JOINSTYLE
280
     0
  9
$LWDISPLAY
290
     1
  9
$INSUNITS
 70
     4
  9
$HYPERLINKBASE
  1

  9
$STYLESHEET
  1

  9
$XEDIT
290
     1
  9
$CEPSNTYPE
380
     0
  9
$PSTYLEMODE
290
     1
  9
$FINGERPRINTGUID
  2
{16dbe2b2-1cef-46c9-abed-1a03360e0d18}
  9
$VERSIONGUID
  2
{FAEB1C32-E019-11D5-929B-00C0DF256EC4}
  9
$EXTNAMES
290
     1
  9
$PSVPSCALE
 40
0.0
  9
$OLESTARTUP
290
     0
  0
ENDSEC
  0
SECTION
  2
CLASSES
  0
CLASS
  1
ACDBDICTIONARYWDFLT
  2
AcDbDictionaryWithDefault
  3
ObjectDBX Classes
 90
        0
280
     0
281
     0
  0
CLASS
  1
VISUALSTYLE
  2
AcDbVisualStyle
  3
ObjectDBX Classes
 90
     4095
280
     0
281
     0
  0
CLASS
  1
MATERIAL
  2
AcDbMaterial
  3
ObjectDBX Classes
 90
     1153
280
     0
281
     0
  0
CLASS
  1
SCALE
  2
AcDbScale
  3
ObjectDBX Classes
 90
     1153
280
     0
281
     0
  0
CLASS
  1
TABLESTYLE
  2
AcDbTableStyle
  3
ObjectDBX Classes
 90
     4095
280
     0
281
     0
  0
CLASS
  1
MLEADERSTYLE
  2
AcDbMLeaderStyle
  3
ACDB_MLEADERSTYLE_CLASS
 90
     4095
280
     0
281
     0
  0
CLASS
  1
SUN
  2
AcDbSun
  3
SCENEOE
 90
     1153
280
     0
281
     0
  0
CLASS
  1
ACDBPLACEHOLDER
  2
AcDbPlaceHolder
  3
ObjectDBX Classes
 90
        0
280
     0
281
     0
  0
CLASS
  1
LAYOUT
  2
AcDbLayout
  3
ObjectDBX Classes
 90
        0
280
     0
281
     0
  0
ENDSEC
  0
SECTION
  2
TABLES
  0
TABLE
  2
VPORT
  5
8
330
0
100
AcDbSymbolTable
 70
     1
  0
VPORT
  5
29
330
8
100
AcDbSymbolTableRecord
100
AcDbViewportTableRecord
  2
*Active
 70
     0
 10
0.0
 20
0.0
 11
1.0
 21
1.0
 12
139.7
 22
107.95
 13
0.0
 23
0.0
 14
10.0
 24
10.0
 15
10.0
 25
10.0
 16
0.0
 26
0.0
 36
1.0
 17
0.0
 27
0.0
 37
0.0
 40
215.9
 41
1.2941176471
 42
50.0
 43
0.0
 44
0.0
 50
0.0
 51
0.0
 71
     0
 72
  2000
 73
     1
 74
     3
 75
     0
 76
     0
 77
     0
 78
     0
281
     0
 65
     1
110
0.0
120
0.0
130
0.0
111
1.0
121
0.0
131
0.0
112
0.0
122
1.0
132
0.0
 79
     0
146
0.0
  0
ENDTAB
  0
TABLE
  2
LTYPE
  5
5
330
0
100
AcDbSymbolTable
 70
     6
  0
LTYPE
  5
14
330
5
100
AcDbSymbolTableRecord
100
AcDbLinetypeTableRecord
  2
ByBlock
 70
     0
  3

 72
    65
 73
     0
 40
0.0
  0
LTYPE
  5
15
330
5
100
AcDbSymbolTableRecord
100
AcDbLinetypeTableRecord
  2
ByLayer
 70
     0
  3

 72
    65
 73
     0
 40
0.0
  0
LTYPE
  5
16
330
5
100
AcDbSymbolTableRecord
100
AcDbLinetypeTableRecord
  2
Continuous
 70
     0
  3
Solid line
 72
    65
 73
     0
 40
0.0
  0
LTYPE
  5
6E
330
5
100
AcDbSymbolTableRecord
100
AcDbLinetypeTableRecord
  2
HIDDEN
 70
     0
  3
Hidden __ __ __ __ __ __ __ __ __ __ __ __ __ __
 72
    65
 73
     2
 40
1.905
 49
1.27
 74
     0
 49
-0.635
 74
     0
  0
LTYPE
  5
6F
330
5
100
AcDbSymbolTableRecord
100
AcDbLinetypeTableRecord
  2
PHANTOM
 70
     0
  3
Phantom ______  __  __  ______  __  __  ______
 72
    65
 73
     6
 40
12.7
 49
6.35
 74
     0
 49
-1.27
 74
     0
 49
1.27
 74
     0
 49
-1.27
 74
     0
 49
1.27
 74
     0
 49
-1.27
 74
     0
  0
LTYPE
  5
70
330
5
100
AcDbSymbolTableRecord
100
AcDbLinetypeTableRecord
  2
CENTER
 70
     0
  3
Center ____ _ ____ _ ____ _ ____ _ ____ _ ____
 72
    65
 73
     4
 40
10.16
 49
6.35
 74
     0
 49
-1.27
 74
     0
 49
1.27
 74
     0
 49
-1.27
 74
     0
  0
LTYPE
  5
71
330
5
100
AcDbSymbolTableRecord
100
AcDbLinetypeTableRecord
  2
CENTERX2
 70
     0
  3
Center (2x) ________  __  ________  __  _____
 72
    65
 73
     4
 40
20.32
 49
12.7
 74
     0
 49
-2.54
 74
     0
 49
2.54
 74
     0
 49
-2.54
 74
     0
  0
LTYPE
  5
72
330
5
100
AcDbSymbolTableRecord
100
AcDbLinetypeTableRecord
  2
DOT2
 70
     0
  3
Dot (.5x) ........................................
 72
    65
 73
     2
 40
0.635
 49
0.0
 74
     0
 49
-0.635
 74
     0
  0
ENDTAB
  0
TABLE
  2
LAYER
  5
2
330
0
100
AcDbSymbolTable
 70
    17
  0
LAYER
  5
10
330
2
100
AcDbSymbolTableRecord
100
AcDbLayerTableRecord
  2
0
 70
     0
 62
     7
  6
Continuous
370
    -3
390
F
  0
LAYER
  5
73
330
2
100
AcDbSymbolTableRecord
100
AcDbLayerTableRecord
  2
FORMAT
 70
     0
 62
     7
  6
Continuous
370
    -3
390
F
  0
LAYER
  5
74
330
2
100
AcDbSymbolTableRecord
100
AcDbLayerTableRecord
  2
YARDIMCI_GEOMETRI
 70
     0
 62
    -6
  6
Continuous
290
     0
370
    -3
390
F
  0
LAYER
  5
75
330
2
100
AcDbSymbolTableRecord
100
AcDbLayerTableRecord
  2
SAYFA_CERCEVESI
 70
     0
 62
     7
  6
Continuous
370
    25
390
F
  0
LAYER
  5
76
330
2
100
AcDbSymbolTableRecord
100
AcDbLayerTableRecord
  2
ANTET
 70
     0
 62
     7
  6
Continuous
370
    -3
390
F
  0
LAYER
  5
77
330
2
100
AcDbSymbolTableRecord
100
AcDbLayerTableRecord
  2
OLCU
 70
     0
 62
   150
  6
Continuous
370
    -3
390
F
  0
LAYER
  5
78
330
2
100
AcDbSymbolTableRecord
100
AcDbLayerTableRecord
  2
METIN
 70
     0
 62
    96
  6
Continuous
370
    -3
390
F
  0
LAYER
  5
79
330
2
100
AcDbSymbolTableRecord
100
AcDbLayerTableRecord
  2
BALON
 70
     0
 62
     5
  6
Continuous
370
    -3
390
F
  0
LAYER
  5
7A
330
2
100
AcDbSymbolTableRecord
100
AcDbLayerTableRecord
  2
VURGU
 70
     0
 62
     7
  6
Continuous
370
    -3
390
F
  0
LAYER
  5
7B
330
2
100
AcDbSymbolTableRecord
100
AcDbLayerTableRecord
  2
SILIK
 70
     0
 62
     7
  6
Continuous
370
    -3
390
F
  0
LAYER
  5
7C
330
2
100
AcDbSymbolTableRecord
100
AcDbLayerTableRecord
  2
MODEL
 70
     0
 62
     7
  6
Continuous
370
    -3
390
F
  0
LAYER
  5
7D
330
2
100
AcDbSymbolTableRecord
100
AcDbLayerTableRecord
  2
DETAYLANDıRMA
 70
     0
 62
   190
  6
Continuous
370
    -3
390
F
  0
LAYER
  5
7E
330
2
100
AcDbSymbolTableRecord
100
AcDbLayerTableRecord
  2
TOLERANS
 70
     0
 62
   230
  6
Continuous
370
    -3
390
F
  0
LAYER
  5
7F
330
2
100
AcDbSymbolTableRecord
100
AcDbLayerTableRecord
  2
MERKEZ_CIZGILERI
 70
     0
 62
    30
  6
Continuous
370
    -3
390
F
  0
LAYER
  5
80
330
2
100
AcDbSymbolTableRecord
100
AcDbLayerTableRecord
  2
KESIT-DETAY_CIZGILERI
 70
     0
 62
     7
  6
Continuous
370
    -3
390
F
  0
LAYER
  5
81
330
2
100
AcDbSymbolTableRecord
100
AcDbLayerTableRecord
  2
\U+041E\U+0421\U+0415\U+0412\U+042B\U+0415
 70
     0
 62
     7
  6
Continuous
370
    -3
390
F
  0
LAYER
  5
82
330
2
100
AcDbSymbolTableRecord
100
AcDbLayerTableRecord
  2
\U+0412\U+041E\U+0414\U+042F\U+041D\U+042B\U+0415_\U+0417\U+041D\U+0410\U+041A\U+0418
 70
     0
 62
    11
  6
Continuous
370
    -3
390
F
  0
ENDTAB
  0
TABLE
  2
STYLE
  5
3
330
0
100
AcDbSymbolTable
 70
     1
  0
STYLE
  5
11
330
3
100
AcDbSymbolTableRecord
100
AcDbTextStyleTableRecord
  2
Standard
 70
     0
 40
0.0
 41
1.0
 50
0.0
 71
     0
 42
3.5
  3
txt
  4

  0
ENDTAB
  0
TABLE
  2
VIEW
  5
6
330
0
100
AcDbSymbolTable
 70
     0
  0
ENDTAB
  0
TABLE
  2
UCS
  5
7
330
0
100
AcDbSymbolTable
 70
     0
  0
ENDTAB
  0
TABLE
  2
APPID
  5
9
330
0
100
AcDbSymbolTable
 70
     1
  0
APPID
  5
12
330
9
100
AcDbSymbolTableRecord
100
AcDbRegAppTableRecord
  2
ACAD
 70
     0
  0
ENDTAB
  0
TABLE
  2
DIMSTYLE
  5
A
330
0
100
AcDbSymbolTable
 70
     1
100
AcDbDimStyleTable
  0
DIMSTYLE
105
27
330
A
100
AcDbSymbolTableRecord
100
AcDbDimStyleTableRecord
  2
ISO-25
 70
     0
 41
2.5
 42
0.625
 43
3.75
 44
1.25
 73
     0
 74
     0
 77
     1
 78
     8
140
2.5
141
2.5
143
0.0393700787
147
0.625
171
     3
172
     1
178
     0
271
     2
272
     2
274
     3
278
    44
283
     0
284
     8
340
11
  0
ENDTAB
  0
TABLE
  2
BLOCK_RECORD
  5
1
330
0
100
AcDbSymbolTable
 70
     2
  0
BLOCK_RECORD
  5
1F
330
1
100
AcDbSymbolTableRecord
100
AcDbBlockTableRecord
  2
*Model_Space
340
22
  0
BLOCK_RECORD
  5
1B
330
1
100
AcDbSymbolTableRecord
100
AcDbBlockTableRecord
  2
*Paper_Space
340
1E
  0
BLOCK_RECORD
  5
23
330
1
100
AcDbSymbolTableRecord
100
AcDbBlockTableRecord
  2
*Paper_Space0
340
26
  0
BLOCK_RECORD
  5
88
330
1
100
AcDbSymbolTableRecord
100
AcDbBlockTableRecord
  2
SW_CENTERMARKSYMBOL_0
340
0
102
{BLKREFS
331
93
102
}
  0
ENDTAB
  0
ENDSEC
  0
SECTION
  2
BLOCKS
  0
BLOCK
  5
20
330
1F
100
AcDbEntity
  8
0
100
AcDbBlockBegin
  2
*Model_Space
 70
     0
 10
0.0
 20
0.0
 30
0.0
  3
*Model_Space
  1

  0
ENDBLK
  5
21
330
1F
100
AcDbEntity
  8
0
100
AcDbBlockEnd
  0
BLOCK
  5
1C
330
1B
100
AcDbEntity
 67
     1
  8
0
100
AcDbBlockBegin
  2
*Paper_Space
 70
     0
 10
0.0
 20
0.0
 30
0.0
  3
*Paper_Space
  1

  0
ENDBLK
  5
1D
330
1B
100
AcDbEntity
 67
     1
  8
0
100
AcDbBlockEnd
  0
BLOCK
  5
24
330
23
100
AcDbEntity
  8
0
100
AcDbBlockBegin
  2
*Paper_Space0
 70
     0
 10
0.0
 20
0.0
 30
0.0
  3
*Paper_Space0
  1

  0
ENDBLK
  5
25
330
23
100
AcDbEntity
  8
0
100
AcDbBlockEnd
  0
BLOCK
  5
89
330
88
100
AcDbEntity
  8
0
100
AcDbBlockBegin
  2
SW_CENTERMARKSYMBOL_0
 70
     0
 10
0.0
 20
0.0
 30
0.0
  3
SW_CENTERMARKSYMBOL_0
  1

  0
LINE
  5
8B
330
88
100
AcDbEntity
  8
FORMAT
 62
     0
100
AcDbLine
 10
0.0
 20
0.0
 30
0.0
 11
0.0
 21
2.5
 31
0.0
  0
LINE
  5
8C
330
88
100
AcDbEntity
  8
FORMAT
 62
     0
100
AcDbLine
 10
0.0
 20
0.0
 30
0.0
 11
-2.5
 21
0.0
 31
0.0
  0
LINE
  5
8D
330
88
100
AcDbEntity
  8
FORMAT
 62
     0
100
AcDbLine
 10
0.0
 20
0.0
 30
0.0
 11
0.0
 21
-2.5
 31
0.0
  0
LINE
  5
8E
330
88
100
AcDbEntity
  8
FORMAT
 62
     0
100
AcDbLine
 10
0.0
 20
0.0
 30
0.0
 11
2.5
 21
0.0
 31
0.0
  0
LINE
  5
8F
330
88
100
AcDbEntity
  8
FORMAT
 62
     0
100
AcDbLine
 10
0.0
 20
5.0
 30
0.0
 11
0.0
 21
57.5
 31
0.0
  0
LINE
  5
90
330
88
100
AcDbEntity
  8
FORMAT
 62
     0
100
AcDbLine
 10
-5.0
 20
0.0
 30
0.0
 11
-57.5
 21
0.0
 31
0.0
  0
LINE
  5
91
330
88
100
AcDbEntity
  8
FORMAT
 62
     0
100
AcDbLine
 10
0.0
 20
-5.0
 30
0.0
 11
0.0
 21
-57.5
 31
0.0
  0
LINE
  5
92
330
88
100
AcDbEntity
  8
FORMAT
 62
     0
100
AcDbLine
 10
5.0
 20
0.0
 30
0.0
 11
57.5
 21
0.0
 31
0.0
  0
ENDBLK
  5
8A
330
88
100
AcDbEntity
  8
0
100
AcDbBlockEnd
  0
ENDSEC
  0
SECTION
  2
ENTITIES
  0
CIRCLE
  5
83
330
1F
100
AcDbEntity
  8
0
  6
Continuous
 62
     7
370
    25
100
AcDbCircle
 10
139.395004093
 20
107.5851680021
 30
0.0
 40
55.0
  0
CIRCLE
  5
84
330
1F
100
AcDbEntity
  8
0
  6
Continuous
 62
     7
370
    25
100
AcDbCircle
 10
139.395004093
 20
107.5851680021
 30
0.0
 40
45.00000000000001
  0
CIRCLE
  5
85
330
1F
100
AcDbEntity
  8
0
  6
Continuous
 62
     7
370
    25
100
AcDbCircle
 10
139.395004093
 20
107.5851680021
 30
0.0
 40
44.73302686570999
  0
CIRCLE
  5
86
330
1F
100
AcDbEntity
  8
0
  6
Continuous
 62
     7
370
    25
100
AcDbCircle
 10
139.395004093
 20
107.5851680021
 30
0.0
 40
25.96697313429001
  0
CIRCLE
  5
87
330
1F
100
AcDbEntity
  8
0
  6
Continuous
 62
     7
370
    25
100
AcDbCircle
 10
139.395004093
 20
107.5851680021
 30
0.0
 40
25.7
  0
INSERT
  5
93
330
1F
100
AcDbEntity
  8
FORMAT
 62
     7
100
AcDbBlockReference
  2
SW_CENTERMARKSYMBOL_0
 10
139.395004093
 20
107.5851680021
 30
0.0
  0
LINE
  5
94
330
1F
100
AcDbEntity
  8
0
  6
Continuous
 62
     7
370
    25
100
AcDbLine
 10
-114.1153883841
 20
162.5851677041
 30
0.0
 11
-195.7841545995
 21
162.5851677041
 31
0.0
  0
LINE
  5
95
330
1F
100
AcDbEntity
  8
0
  6
Continuous
 62
     7
370
    25
100
AcDbLine
 10
-195.7841545995
 20
52.5851683001
 30
0.0
 11
-114.1153883841
 21
52.5851683001
 31
0.0
  0
ARC
  5
96
330
1F
100
AcDbEntity
  8
0
  6
Continuous
 62
     7
370
    25
100
AcDbCircle
 10
-114.1153887091
 20
160.5851680021
 30
0.0
 40
2.0
100
AcDbArc
 50
71.192198873
 51
90.0
  0
ARC
  5
97
330
1F
100
AcDbEntity
  8
0
  6
Continuous
 62
     7
370
    25
100
AcDbCircle
 10
-114.1153887091
 20
54.5851680021
 30
0.0
 40
1.999999999999995
100
AcDbArc
 50
270.0
 51
288.807801127
  0
LINE
  5
98
330
1F
100
AcDbEntity
  8
0
  6
Continuous
 62
     7
370
    25
100
AcDbLine
 10
-113.4706002381
 20
52.6919574718
 30
0.0
 11
-45.0977005716
 21
75.9783783238
 31
0.0
  0
LINE
  5
99
330
1F
100
AcDbEntity
  8
0
  6
Continuous
 62
     7
370
    25
100
AcDbLine
 10
-45.0977005716
 20
139.1919576804
 30
0.0
 11
-113.4706002381
 21
162.4783785324
 31
0.0
  0
ARC
  5
9A
330
1F
100
AcDbEntity
  8
0
  6
Continuous
 62
     7
370
    25
100
AcDbCircle
 10
-44.4529132263
 20
141.0851680021
 30
0.0
 40
2.0
100
AcDbArc
 50
251.192198873
 51
270.0
  0
ARC
  5
9B
330
1F
100
AcDbEntity
  8
0
  6
Continuous
 62
     7
370
    25
100
AcDbCircle
 10
-44.4529132263
 20
74.0851680021
 30
0.0
 40
2.000000000000014
100
AcDbArc
 50
90.0
 51
108.807801127
  0
LINE
  5
9C
330
1F
100
AcDbEntity
  8
0
  6
Continuous
 62
     7
370
    25
100
AcDbLine
 10
18.2158469502
 20
139.0851685088
 30
0.0
 11
-44.4529124256
 21
139.0851685088
 31
0.0
  0
LINE
  5
9D
330
1F
100
AcDbEntity
  8
0
  6
Continuous
 62
     7
370
    25
100
AcDbLine
 10
-44.4529124256
 20
76.0851674955
 30
0.0
 11
18.2158469502
 21
76.0851674955
 31
0.0
  0
LINE
  5
9E
330
1F
100
AcDbEntity
  8
0
  6
Continuous
 62
     7
370
    25
100
AcDbLine
 10
-195.7841545995
 20
162.5851677041
 30
0.0
 11
-195.7841545995
 21
52.5851683001
 31
0.0
  0
LINE
  5
9F
330
1F
100
AcDbEntity
  8
0
  6
Continuous
 62
     7
370
    25
100
AcDbLine
 10
18.2158469502
 20
139.0851685088
 30
0.0
 11
18.2158469502
 21
76.0851674955
 31
0.0
  0
LINE
  5
A0
330
1F
100
AcDbEntity
  8
0
  6
Continuous
 62
     1
370
    25
100
AcDbLine
 10
-114.1153883841
 20
162.5851677041
 30
0.0
 11
-114.1153883841
 21
52.5851683001
 31
0.0
  0
LINE
  5
A1
330
1F
100
AcDbEntity
  8
0
  6
Continuous
 62
     1
370
    25
100
AcDbLine
 10
-113.4706002381
 20
162.4783785324
 30
0.0
 11
-113.4706002381
 21
52.6919574718
 31
0.0
  0
LINE
  5
A2
330
1F
100
AcDbEntity
  8
0
  6
Continuous
 62
     1
370
    25
100
AcDbLine
 10
-45.0977005716
 20
139.1919576804
 30
0.0
 11
-45.0977005716
 21
75.9783783238
 31
0.0
  0
LINE
  5
A3
330
1F
100
AcDbEntity
  8
0
  6
Continuous
 62
     1
370
    25
100
AcDbLine
 10
-44.4529124256
 20
139.0851685088
 30
0.0
 11
-44.4529124256
 21
76.0851674955
 31
0.0
  0
LINE
  5
A4
330
1F
100
AcDbEntity
  8
0
  6
Continuous
 62
     7
370
    25
100
AcDbLine
 10
358.4609710315
 20
52.5851683001
 30
0.0
 11
440.1297372469
 21
52.5851683001
 31
0.0
  0
LINE
  5
A5
330
1F
100
AcDbEntity
  8
0
  6
Continuous
 62
     7
370
    25
100
AcDbLine
 10
440.1297372469
 20
162.5851677041
 30
0.0
 11
358.4609710315
 21
162.5851677041
 31
0.0
  0
ARC
  5
A6
330
1F
100
AcDbEntity
  8
0
  6
Continuous
 62
     7
370
    25
100
AcDbCircle
 10
358.4609713565
 20
54.5851680021
 30
0.0
 40
2.000000000000022
100
AcDbArc
 50
251.192198873
 51
270.0
  0
ARC
  5
A7
330
1F
100
AcDbEntity
  8
0
  6
Continuous
 62
     7
370
    25
100
AcDbCircle
 10
358.4609713565
 20
160.5851680021
 30
0.0
 40
2.000000000000022
100
AcDbArc
 50
90.0
 51
108.807801127
  0
LINE
  5
A8
330
1F
100
AcDbEntity
  8
0
  6
Continuous
 62
     7
370
    25
100
AcDbLine
 10
357.8161828855
 20
162.4783785324
 30
0.0
 11
289.443283219
 21
139.1919576804
 31
0.0
  0
LINE
  5
A9
330
1F
100
AcDbEntity
  8
0
  6
Continuous
 62
     7
370
    25
100
AcDbLine
 10
289.443283219
 20
75.9783783238
 30
0.0
 11
357.8161828855
 21
52.6919574718
 31
0.0
  0
ARC
  5
AA
330
1F
100
AcDbEntity
  8
0
  6
Continuous
 62
     7
370
    25
100
AcDbCircle
 10
288.7984958737
 20
74.0851680021
 30
0.0
 40
2.000000000000014
100
AcDbArc
 50
71.192198873
 51
90.0
  0
ARC
  5
AB
330
1F
100
AcDbEntity
  8
0
  6
Continuous
 62
     7
370
    25
100
AcDbCircle
 10
288.7984958737
 20
141.0851680021
 30
0.0
 40
2.0
100
AcDbArc
 50
270.0
 51
288.807801127
  0
LINE
  5
AC
330
1F
100
AcDbEntity
  8
0
  6
Continuous
 62
     7
370
    25
100
AcDbLine
 10
226.1297356972
 20
76.0851674955
 30
0.0
 11
288.798495073
 21
76.0851674955
 31
0.0
  0
LINE
  5
AD
330
1F
100
AcDbEntity
  8
0
  6
Continuous
 62
     7
370
    25
100
AcDbLine
 10
288.798495073
 20
139.0851685088
 30
0.0
 11
226.1297356972
 21
139.0851685088
 31
0.0
  0
LINE
  5
AE
330
1F
100
AcDbEntity
  8
0
  6
Continuous
 62
     7
370
    25
100
AcDbLine
 10
440.1297372469
 20
107.5851680021
 30
0.0
 11
440.1297372469
 21
162.5851677041
 31
0.0
  0
LINE
  5
AF
330
1F
100
AcDbEntity
  8
0
  6
Continuous
 62
     7
370
    25
100
AcDbLine
 10
440.1297372469
 20
52.5851683001
 30
0.0
 11
440.1297372469
 21
107.5851680021
 31
0.0
  0
LINE
  5
B0
330
1F
100
AcDbEntity
  8
0
  6
Continuous
 62
     7
370
    25
100
AcDbLine
 10
226.1297356972
 20
107.5851680021
 30
0.0
 11
226.1297356972
 21
139.0851685088
 31
0.0
  0
LINE
  5
B1
330
1F
100
AcDbEntity
  8
0
  6
Continuous
 62
     7
370
    25
100
AcDbLine
 10
226.1297356972
 20
76.0851674955
 30
0.0
 11
226.1297356972
 21
107.5851680021
 31
0.0
  0
LINE
  5
B2
330
1F
100
AcDbEntity
  8
0
  6
Continuous
 62
     1
370
    25
100
AcDbLine
 10
358.4609710315
 20
107.5851680021
 30
0.0
 11
358.4609710315
 21
162.5851677041
 31
0.0
  0
LINE
  5
B3
330
1F
100
AcDbEntity
  8
0
  6
Continuous
 62
     1
370
    25
100
AcDbLine
 10
358.4609710315
 20
52.5851683001
 30
0.0
 11
358.4609710315
 21
107.5851680021
 31
0.0
  0
LINE
  5
B4
330
1F
100
AcDbEntity
  8
0
  6
Continuous
 62
     1
370
    25
100
AcDbLine
 10
357.8161828855
 20
107.5851680021
 30
0.0
 11
357.8161828855
 21
162.4783785324
 31
0.0
  0
LINE
  5
B5
330
1F
100
AcDbEntity
  8
0
  6
Continuous
 62
     1
370
    25
100
AcDbLine
 10
357.8161828855
 20
52.6919574718
 30
0.0
 11
357.8161828855
 21
107.5851680021
 31
0.0
  0
LINE
  5
B6
330
1F
100
AcDbEntity
  8
0
  6
Continuous
 62
     1
370
    25
100
AcDbLine
 10
289.443283219
 20
107.5851680021
 30
0.0
 11
289.443283219
 21
139.1919576804
 31
0.0
  0
LINE
  5
B7
330
1F
100
AcDbEntity
  8
0
  6
Continuous
 62
     1
370
    25
100
AcDbLine
 10
289.443283219
 20
75.9783783238
 30
0.0
 11
289.443283219
 21
107.5851680021
 31
0.0
  0
LINE
  5
B8
330
1F
100
AcDbEntity
  8
0
  6
Continuous
 62
     1
370
    25
100
AcDbLine
 10
288.798495073
 20
107.5851680021
 30
0.0
 11
288.798495073
 21
139.0851685088
 31
0.0
  0
LINE
  5
B9
330
1F
100
AcDbEntity
  8
0
  6
Continuous
 62
     1
370
    25
100
AcDbLine
 10
288.798495073
 20
76.0851674955
 30
0.0
 11
288.798495073
 21
107.5851680021
 31
0.0
  0
LINE
  5
BA
330
1F
100
AcDbEntity
  8
0
  6
Continuous
 62
     7
370
    25
100
AcDbLine
 10
194.395003795
 20
328.1676825193
 30
0.0
 11
194.395003795
 21
409.8364487347
 31
0.0
  0
LINE
  5
BB
330
1F
100
AcDbEntity
  8
0
  6
Continuous
 62
     7
370
    25
100
AcDbLine
 10
84.3950043911
 20
409.8364487347
 30
0.0
 11
84.3950043911
 21
328.1676825193
 31
0.0
  0
ARC
  5
BC
330
1F
100
AcDbEntity
  8
0
  6
Continuous
 62
     7
370
    25
100
AcDbCircle
 10
192.395004093
 20
328.1676828443
 30
0.0
 40
2.0
100
AcDbArc
 50
341.192198873
 51
0.0
  0
ARC
  5
BD
330
1F
100
AcDbEntity
  8
0
  6
Continuous
 62
     7
370
    25
100
AcDbCircle
 10
86.395004093
 20
328.1676828443
 30
0.0
 40
2.0
100
AcDbArc
 50
180.0
 51
198.807801127
  0
LINE
  5
BE
330
1F
100
AcDbEntity
  8
0
  6
Continuous
 62
     7
370
    25
100
AcDbLine
 10
84.5017935628
 20
327.5228943733
 30
0.0
 11
107.7882144147
 21
259.1499947068
 31
0.0
  0
LINE
  5
BF
330
1F
100
AcDbEntity
  8
0
  6
Continuous
 62
     7
370
    25
100
AcDbLine
 10
171.0017937714
 20
259.1499947068
 30
0.0
 11
194.2882146233
 21
327.5228943733
 31
0.0
  0
ARC
  5
C0
330
1F
100
AcDbEntity
  8
0
  6
Continuous
 62
     7
370
    25
100
AcDbCircle
 10
172.895004093
 20
258.5052073615
 30
0.0
 40
2.0
100
AcDbArc
 50
161.192198873
 51
180.0
  0
ARC
  5
C1
330
1F
100
AcDbEntity
  8
0
  6
Continuous
 62
     7
370
    25
100
AcDbCircle
 10
105.895004093
 20
258.5052073615
 30
0.0
 40
2.0
100
AcDbArc
 50
0.0
 51
18.807801127
  0
LINE
  5
C2
330
1F
100
AcDbEntity
  8
0
  6
Continuous
 62
     7
370
    25
100
AcDbLine
 10
170.8950045997
 20
195.836447185
 30
0.0
 11
170.8950045997
 21
258.5052065608
 31
0.0
  0
LINE
  5
C3
330
1F
100
AcDbEntity
  8
0
  6
Continuous
 62
     7
370
    25
100
AcDbLine
 10
107.8950035864
 20
258.5052065608
 30
0.0
 11
107.8950035864
 21
195.836447185
 31
0.0
  0
LINE
  5
C4
330
1F
100
AcDbEntity
  8
0
  6
Continuous
 62
     7
370
    25
100
AcDbLine
 10
194.395003795
 20
409.8364487347
 30
0.0
 11
84.3950043911
 21
409.8364487347
 31
0.0
  0
LINE
  5
C5
330
1F
100
AcDbEntity
  8
0
  6
Continuous
 62
     7
370
    25
100
AcDbLine
 10
170.8950045997
 20
195.836447185
 30
0.0
 11
107.8950035864
 21
195.836447185
 31
0.0
  0
LINE
  5
C6
330
1F
100
AcDbEntity
  8
0
  6
Continuous
 62
     1
370
    25
100
AcDbLine
 10
194.395003795
 20
328.1676825193
 30
0.0
 11
84.3950043911
 21
328.1676825193
 31
0.0
  0
LINE
  5
C7
330
1F
100
AcDbEntity
  8
0
  6
Continuous
 62
     1
370
    25
100
AcDbLine
 10
194.2882146233
 20
327.5228943733
 30
0.0
 11
84.5017935628
 21
327.5228943733
 31
0.0
  0
LINE
  5
C8
330
1F
100
AcDbEntity
  8
0
  6
Continuous
 62
     1
370
    25
100
AcDbLine
 10
171.0017937714
 20
259.1499947068
 30
0.0
 11
107.7882144147
 21
259.1499947068
 31
0.0
  0
LINE
  5
C9
330
1F
100
AcDbEntity
  8
0
  6
Continuous
 62
     1
370
    25
100
AcDbLine
 10
170.8950045997
 20
258.5052065608
 30
0.0
 11
107.8950035864
 21
258.5052065608
 31
0.0
  0
LINE
  5
CA
330
1F
100
AcDbEntity
  8
0
  6
Continuous
 62
     7
370
    25
100
AcDbLine
 10
84.3950043911
 20
-121.5516414555
 30
0.0
 11
84.3950043911
 21
-203.2204076709
 31
0.0
  0
LINE
  5
CB
330
1F
100
AcDbEntity
  8
0
  6
Continuous
 62
     7
370
    25
100
AcDbLine
 10
194.395003795
 20
-203.2204076709
 30
0.0
 11
194.395003795
 21
-121.5516414555
 31
0.0
  0
ARC
  5
CC
330
1F
100
AcDbEntity
  8
0
  6
Continuous
 62
     7
370
    25
100
AcDbCircle
 10
86.395004093
 20
-121.5516417805
 30
0.0
 40
2.0
100
AcDbArc
 50
161.192198873
 51
180.0
  0
ARC
  5
CD
330
1F
100
AcDbEntity
  8
0
  6
Continuous
 62
     7
370
    25
100
AcDbCircle
 10
192.395004093
 20
-121.5516417805
 30
0.0
 40
2.0
100
AcDbArc
 50
0.0
 51
18.807801127
  0
LINE
  5
CE
330
1F
100
AcDbEntity
  8
0
  6
Continuous
 62
     7
370
    25
100
AcDbLine
 10
194.2882146233
 20
-120.9068533095
 30
0.0
 11
171.0017937714
 21
-52.533953643
 31
0.0
  0
LINE
  5
CF
330
1F
100
AcDbEntity
  8
0
  6
Continuous
 62
     7
370
    25
100
AcDbLine
 10
107.7882144147
 20
-52.533953643
 30
0.0
 11
84.5017935628
 21
-120.9068533095
 31
0.0
  0
ARC
  5
D0
330
1F
100
AcDbEntity
  8
0
  6
Continuous
 62
     7
370
    25
100
AcDbCircle
 10
105.895004093
 20
-51.8891662977
 30
0.0
 40
2.0
100
AcDbArc
 50
341.192198873
 51
0.0
  0
ARC
  5
D1
330
1F
100
AcDbEntity
  8
0
  6
Continuous
 62
     7
370
    25
100
AcDbCircle
 10
172.895004093
 20
-51.8891662977
 30
0.0
 40
2.0
100
AcDbArc
 50
180.0
 51
198.807801127
  0
LINE
  5
D2
330
1F
100
AcDbEntity
  8
0
  6
Continuous
 62
     7
370
    25
100
AcDbLine
 10
107.8950035864
 20
10.7795938788
 30
0.0
 11
107.8950035864
 21
-51.889165497
 31
0.0
  0
LINE
  5
D3
330
1F
100
AcDbEntity
  8
0
  6
Continuous
 62
     7
370
    25
100
AcDbLine
 10
170.8950045997
 20
-51.889165497
 30
0.0
 11
170.8950045997
 21
10.7795938788
 31
0.0
  0
LINE
  5
D4
330
1F
100
AcDbEntity
  8
0
  6
Continuous
 62
     7
370
    25
100
AcDbLine
 10
84.3950043911
 20
-203.2204076709
 30
0.0
 11
194.395003795
 21
-203.2204076709
 31
0.0
  0
LINE
  5
D5
330
1F
100
AcDbEntity
  8
0
  6
Continuous
 62
     7
370
    25
100
AcDbLine
 10
107.8950035864
 20
10.7795938788
 30
0.0
 11
170.8950045997
 21
10.7795938788
 31
0.0
  0
LINE
  5
D6
330
1F
100
AcDbEntity
  8
0
  6
Continuous
 62
     1
370
    25
100
AcDbLine
 10
84.3950043911
 20
-121.5516414555
 30
0.0
 11
194.395003795
 21
-121.5516414555
 31
0.0
  0
LINE
  5
D7
330
1F
100
AcDbEntity
  8
0
  6
Continuous
 62
     1
370
    25
100
AcDbLine
 10
84.5017935628
 20
-120.9068533095
 30
0.0
 11
194.2882146233
 21
-120.9068533095
 31
0.0
  0
LINE
  5
D8
330
1F
100
AcDbEntity
  8
0
  6
Continuous
 62
     1
370
    25
100
AcDbLine
 10
107.7882144147
 20
-52.533953643
 30
0.0
 11
171.0017937714
 21
-52.533953643
 31
0.0
  0
LINE
  5
D9
330
1F
100
AcDbEntity
  8
0
  6
Continuous
 62
     1
370
    25
100
AcDbLine
 10
107.8950035864
 20
-51.889165497
 30
0.0
 11
170.8950045997
 21
-51.889165497
 31
0.0
  0
LINE
  5
DA
330
1F
100
AcDbEntity
  8
0
  6
Continuous
 62
     7
370
    25
100
AcDbLine
 10
363.1020226696
 20
-17.1920695796
 30
0.0
 11
305.3534842675
 21
16.1454520308
 31
0.0
  0
LINE
  5
DB
330
1F
100
AcDbEntity
  8
0
  6
Continuous
 62
     7
370
    25
100
AcDbLine
 10
250.3579529855
 20
-79.1199261036
 30
0.0
 11
308.1064913876
 21
-112.457447714
 31
0.0
  0
SPLINE
  5
DC
330
1F
100
AcDbEntity
  8
0
  6
Continuous
 62
     7
370
    25
100
AcDbSpline
210
0.0
220
0.0
230
1.0
 70
     8
 71
     3
 72
    11
 73
     7
 74
     0
 42
0.000000001
 43
0.00000001
 40
0.0
 40
0.0
 40
0.0
 40
0.0
 40
0.2517218119968624
 40
0.5638382439761347
 40
0.8747921928658974
 40
1.0
 40
1.0
 40
1.0
 40
1.0
 10
367.6648325868699
 20
-20.82694804623157
 30
0.0
 10
367.3220481712842
 20
-20.47074233405879
 30
0.0
 10
366.5542364293732
 20
-19.67286788030161
 30
0.0
 10
365.2417266004936
 20
-18.59862374474092
 30
0.0
 10
364.070464333847
 20
-17.75072879066425
 30
0.0
 10
363.3355021961389
 20
-17.34441811057097
 30
0.0
 10
363.1245185500074
 20
-17.22777957322321
 30
0.0
  0
SPLINE
  5
DD
330
1F
100
AcDbEntity
  8
0
  6
Continuous
 62
     7
370
    25
100
AcDbSpline
210
0.0
220
0.0
230
1.0
 70
     8
 71
     3
 72
    12
 73
     8
 74
     0
 42
0.000000001
 43
0.00000001
 40
0.0
 40
0.0
 40
0.0
 40
0.0
 40
0.0204958088719206
 40
0.3063091153081031
 40
0.5920720573417625
 40
0.878201621713619
 40
1.0
 40
1.0
 40
1.0
 40
1.0
 10
308.0744018307911
 20
-112.4326023411827
 30
0.0
 10
308.1105126444344
 20
-112.4556131080872
 30
0.0
 10
308.6501874359623
 20
-112.7995081793728
 30
0.0
 10
309.7698622725877
 20
-113.3344992309398
 30
0.0
 10
311.4357897830028
 20
-114.0126914018923
 30
0.0
 10
312.8348405615182
 20
-114.4565890020385
 30
0.0
 10
313.6930950805004
 20
-114.6272704694187
 30
0.0
 10
313.9493511434898
 20
-114.6782322294663
 30
0.0
  0
LINE
  5
DE
330
1F
100
AcDbEntity
  8
0
  6
Continuous
 62
     7
370
    25
100
AcDbLine
 10
316.0346217913
 20
-115.0451567208
 30
0.0
 11
372.8766723611
 21
-121.762753354
 31
0.0
  0
LINE
  5
DF
330
1F
100
AcDbEntity
  8
0
  6
Continuous
 62
     7
370
    25
100
AcDbLine
 10
403.5505718223
 20
-68.6282444727
 30
0.0
 11
369.3076324481
 21
-22.7635957748
 31
0.0
  0
LINE
  5
E0
330
1F
100
AcDbEntity
  8
0
  6
Continuous
 62
     7
370
    25
100
AcDbLine
 10
444.9252913856
 20
-91.5623665136
 30
0.0
 11
402.3027155905
 21
-66.9568772497
 31
0.0
  0
LINE
  5
E1
330
1F
100
AcDbEntity
  8
0
  6
Continuous
 62
     7
370
    25
100
AcDbLine
 10
370.8052746118
 20
-121.5179554905
 30
0.0
 11
413.427850407
 21
-146.1234447544
 31
0.0
  0
LWPOLYLINE
  5
E2
330
1F
100
AcDbEntity
  8
0
  6
Continuous
 62
     7
370
    25
100
AcDbPolyline
 90
      110
 70
   128
 43
0.0
 10
238.964845872
 20
-53.9384599899
 10
239.0294411857
 20
-51.3138304742
 10
239.2230137584
 20
-48.6233387234
 10
239.5449208506
 20
-45.8759225876
 10
239.9940929861
 20
-43.0807077113
 10
240.5690365858
 20
-40.2469811073
 10
241.2678418709
 20
-37.3841578876
 10
242.0881907645
 20
-34.5017428603
 10
243.0273542582
 20
-31.6093145599
 10
244.0822134852
 20
-28.7164819029
 10
245.249267623
 20
-25.832850728
 10
246.5246338932
 20
-22.9680055451
 10
247.9040818057
 20
-20.1314578271
 10
249.3830226225
 20
-17.3326353625
 10
250.9565488698
 20
-14.5808320681
 10
252.6194317044
 20
-11.8851897381
 10
254.3661472548
 20
-9.2546645863
 10
256.1908924269
 20
-6.6979937867
 10
258.0876059771
 20
-4.2236680992
 10
260.0499869513
 20
-1.8399120992
 10
262.0715157591
 20
0.4453614483
 10
264.1454791977
 20
2.6245538674
 10
266.2649875745
 20
4.6904360839
 10
268.422997756
 20
6.6361345545
 10
270.6123428022
 20
8.4551940018
 10
272.8257497476
 20
10.1415663866
 10
275.0558656136
 20
11.6896533005
 10
277.2952825976
 20
13.0943113826
 10
279.5365611223
 20
14.3508747504
 10
281.7722560127
 20
15.4551670699
 10
283.9949405332
 20
16.4035215156
 10
286.1972312473
 20
17.1927890381
 10
288.3718123842
 20
17.8203433047
 10
290.5114597106
 20
18.2841066483
 10
292.6090662142
 20
18.5825314334
 10
294.6576638354
 20
18.7146308525
 10
296.6504471754
 20
18.6799652365
 10
298.5807965448
 20
18.4786492757
 10
300.4422990372
 20
18.111348977
 10
302.2287696025
 20
17.5792907869
 10
303.9342760718
 20
16.8842364941
 10
305.5531549624
 20
16.0284984372
 10
307.0800220143
 20
15.014915169
 10
308.5098117031
 20
13.8468590572
 10
309.8377693377
 20
12.5282073878
 10
311.059487938
 20
11.0633393197
 10
312.1709056016
 20
9.4571237174
 10
313.168331845
 20
7.7148948138
 10
314.0484528723
 20
5.8424400427
 10
314.8083447459
 20
3.8459802647
 10
315.4454839232
 20
1.7321461927
 10
315.9577551592
 20
-0.4920383397
 10
316.3434541409
 20
-2.819186036
 10
316.6013006575
 20
-5.2415659103
 10
316.7304386014
 20
-7.7511316145
 10
316.7304386014
 20
-10.3395461538
 10
316.6013006575
 20
-12.9982113543
 10
316.3434541409
 20
-15.7182944799
 10
315.9577551592
 20
-18.4907607415
 10
315.4454839232
 20
-21.3064010536
 10
314.8083447459
 20
-24.1558603615
 10
314.0484528723
 20
-27.0296726217
 10
313.168331845
 20
-29.9182935013
 10
312.1709056016
 20
-32.8121262329
 10
311.059487938
 20
-35.7015573556
 10
309.8377693377
 20
-38.576991695
 10
308.5098117031
 20
-41.4288706135
 10
307.0800220143
 20
-44.2477267618
 10
305.5531549624
 20
-47.0241932041
 10
303.9342760718
 20
-49.7490490427
 10
302.2287696025
 20
-52.4132391907
 10
300.4422990372
 20
-55.0079123915
 10
298.5807965448
 20
-57.5244577199
 10
296.6504471754
 20
-59.9545076227
 10
294.6576638354
 20
-62.2899919089
 10
292.6090662142
 20
-64.5231529572
 10
290.5114597106
 20
-66.6465730908
 10
288.3718123842
 20
-68.6531939666
 10
286.1972312473
 20
-70.5363576384
 10
283.9949405332
 20
-72.2898008514
 10
281.7722560127
 20
-73.9077033288
 10
279.5365611223
 20
-75.3846893857
 10
277.2952825976
 20
-76.7158511212
 10
275.0558656136
 20
-77.8967688533
 10
272.8257497476
 20
-78.9235189113
 10
270.6123428022
 20
-79.7926917894
 10
268.422997756
 20
-80.5013963275
 10
266.2649875745
 20
-81.0472833775
 10
264.1454791977
 20
-81.4285334441
 10
262.0715157591
 20
-81.6438882419
 10
260.0499869513
 20
-81.6926221752
 10
258.0876059771
 20
-81.5745830209
 10
256.1908924269
 20
-81.2901561851
 10
254.3661472548
 20
-80.8402913165
 10
252.6194317044
 20
-80.2264810123
 10
250.9565488698
 20
-79.4507623364
 10
249.3830226225
 20
-78.5157137765
 10
247.9040818057
 20
-77.4244400327
 10
246.5246338932
 20
-76.1805689735
 10
245.249267623
 20
-74.7882303429
 10
244.0822134852
 20
-73.2520511941
 10
243.0273542582
 20
-71.5771330766
 10
242.0881907645
 20
-69.7690398654
 10
241.2678418709
 20
-67.8337795099
 10
240.5690365858
 20
-65.7777796985
 10
239.9940929861
 20
-63.6078688452
 10
239.5449208506
 20
-61.3312570777
 10
239.2230137584
 20
-58.9555069594
 10
239.0294411857
 20
-56.4885093438
 10
238.964845872
 20
-53.9384599899
  0
LWPOLYLINE
  5
E3
330
1F
100
AcDbEntity
  8
0
  6
Continuous
 62
     7
370
    25
100
AcDbPolyline
 90
      100
 70
   128
 43
0.0
 10
246.0359122087
 20
-49.8564202823
 10
246.0999780526
 20
-47.4889659587
 10
246.2919095324
 20
-45.0570804867
 10
246.6109401022
 20
-42.5705522828
 10
247.0557790148
 20
-40.0393978528
 10
247.6246402975
 20
-37.4738053308
 10
248.3152322154
 20
-34.8841069111
 10
249.1247730766
 20
-32.2807305601
 10
250.0500017685
 20
-29.674158953
 10
251.0871961977
 20
-27.0748876492
 10
252.2321759236
 20
-24.4933847888
 10
253.4803337688
 20
-21.9400424251
 10
254.8266437217
 20
-19.4251430659
 10
256.2656820096
 20
-16.9588140469
 10
257.7916560752
 20
-14.5509879911
 10
259.3984203809
 20
-12.2113556607
 10
261.0795067028
 20
-9.9493423863
 10
262.8281452032
 20
-7.7740517946
 10
264.6372934072
 20
-5.6942460385
 10
266.4996691296
 20
-3.7183024544
 10
268.4077702313
 20
-1.8541717384
 10
270.3539154493
 20
-0.1093635012
 10
272.3302674453
 20
1.5090944143
 10
274.3288686968
 20
2.9946918616
 10
276.3416712959
 20
4.3414383841
 10
278.3605704943
 20
5.543919082
 10
280.3774368482
 20
6.5972857929
 10
282.3841488985
 20
7.4973033341
 10
284.3726270038
 20
8.2403416575
 10
286.3348637568
 20
8.8234086177
 10
288.2629576112
 20
9.2441633008
 10
290.1491456445
 20
9.5009045191
 10
291.9858315456
 20
9.5925991363
 10
293.7656218354
 20
9.5188847249
 10
295.4813475984
 20
9.2800486523
 10
297.1261007027
 20
8.877058115
 10
298.6932601417
 20
8.3115358015
 10
300.176513108
 20
7.5857568488
 10
301.5698879197
 20
6.7026465574
 10
302.8677737778
 20
5.6657568156
 10
304.0649471073
 20
4.4792676174
 10
305.156584728
 20
3.1479520807
 10
306.1382901969
 20
1.6771734023
 10
307.006112247
 20
0.0728529169
 10
307.756555324
 20
-1.6585481546
 10
308.3865980257
 20
-3.5100598865
 10
308.8937036386
 20
-5.4742257019
 10
309.2758306748
 20
-7.5431358349
 10
309.5314407743
 20
-9.708460791
 10
309.6595039735
 20
-11.9614807209
 10
309.6595039735
 20
-14.2931243946
 10
309.5314407743
 20
-16.694002947
 10
309.2758306748
 20
-19.1544490422
 10
308.8937036386
 20
-21.6645536601
 10
308.3865980257
 20
-24.2142111537
 10
307.756555324
 20
-26.7931547051
 10
307.006112247
 20
-29.3909989106
 10
306.1382901969
 20
-31.9972854075
 10
305.156584728
 20
-34.6015170942
 10
304.0649471073
 20
-37.1932105999
 10
302.8677737778
 20
-39.7619267026
 10
301.5698879197
 20
-42.2973235596
 10
300.176513108
 20
-44.7891901653
 10
298.6932601417
 20
-47.2274965407
 10
297.1261007027
 20
-49.6024226283
 10
295.4813475984
 20
-51.9044046786
 10
293.7656218354
 20
-54.1241755518
 10
291.9858315456
 20
-56.2527920919
 10
290.1491456445
 20
-58.2816898781
 10
288.2629576112
 20
-60.2026950083
 10
286.3348637568
 20
-62.0080701051
 10
284.3726270038
 20
-63.6905534764
 10
282.3841488985
 20
-65.2433631049
 10
280.3774368482
 20
-66.6602459803
 10
278.3605704943
 20
-67.9355035954
 10
276.3416712959
 20
-69.0639942958
 10
274.3288686968
 20
-70.041180188
 10
272.3302674453
 20
-70.8631186284
 10
270.3539154493
 20
-71.526508157
 10
268.4077702313
 20
-72.0286713603
 10
266.4996691296
 20
-72.3675872832
 10
264.6372934072
 20
-72.5418969388
 10
262.8281452032
 20
-72.5508892377
 10
261.0795067028
 20
-72.3945336842
 10
259.3984203809
 20
-72.0734613631
 10
257.7916560752
 20
-71.5889596125
 10
256.2656820096
 20
-70.9429857107
 10
254.8266437217
 20
-70.1381349334
 10
253.4803337688
 20
-69.1776519591
 10
252.2321759236
 20
-68.0654019691
 10
251.0871961977
 20
-66.8058645613
 10
250.0500017685
 20
-65.4041124555
 10
249.1247730766
 20
-63.8657871578
 10
248.3152322154
 20
-62.19708679
 10
247.6246402975
 20
-60.4047288268
 10
247.0557790148
 20
-58.4959295616
 10
246.6109401022
 20
-56.4783752078
 10
246.2919095324
 20
-54.3601918593
 10
246.0999780526
 20
-52.1499057571
 10
246.0359122087
 20
-49.8564202823
  0
ARC
  5
E4
330
1F
100
AcDbEntity
  8
0
  6
Continuous
 62
     7
370
    25
100
AcDbCircle
 10
351.9783751449
 20
-35.7574758349
 30
0.0
 40
21.65995639006573
100
AcDbArc
 50
29.3304663377
 51
43.4491307585
  0
ARC
  5
E5
330
1F
100
AcDbEntity
  8
0
  6
Continuous
 62
     7
370
    25
100
AcDbCircle
 10
318.6370316504
 20
-93.3069260056
 30
0.0
 40
21.89286635734307
100
AcDbArc
 50
257.9434687013
 51
270.3580440075
  0
LWPOLYLINE
  5
E6
330
1F
100
AcDbEntity
  8
0
  6
Continuous
 62
     7
370
    25
100
AcDbPolyline
 90
       43
 70
   128
 43
0.0
 10
444.9252913856
 20
-91.5623665136
 10
445.2253703615
 20
-91.7423285561
 10
446.3606154825
 20
-92.5579532028
 10
447.395017683
 20
-93.5278290451
 10
448.3225064996
 20
-94.6462619276
 10
449.1376397207
 20
-95.9066923473
 10
449.8356336789
 20
-97.3017205514
 10
450.4123922274
 20
-98.8231605329
 10
450.8645304473
 20
-100.4620849003
 10
451.1893944044
 20
-102.2088754503
 10
451.3850782707
 20
-104.0532811543
 10
451.4504348619
 20
-105.984477666
 10
451.3850782707
 20
-107.9911332917
 10
451.1893944044
 20
-110.0614707787
 10
450.8645304473
 20
-112.1833412697
 10
450.4123922274
 20
-114.3442933142
 10
449.8356336789
 20
-116.5316445414
 10
449.1376397207
 20
-118.7325594158
 10
448.3225064996
 20
-120.93412262
 10
447.395017683
 20
-123.1234112965
 10
446.3606154825
 20
-125.2875824981
 10
445.2253703615
 20
-127.4139332619
 10
443.9959441563
 20
-129.489985017
 10
442.6795531975
 20
-131.5035565853
 10
441.2839208951
 20
-133.4428295775
 10
439.8172369087
 20
-135.2964251951
 10
438.2881097321
 20
-137.053463543
 10
436.7055126927
 20
-138.7036373887
 10
435.0787325851
 20
-140.2372585458
 10
433.4173166584
 20
-141.6453295429
 10
431.7310138409
 20
-142.9195882002
 10
430.0297207393
 20
-144.0525540122
 10
428.3234210532
 20
-145.0375798541
 10
426.6221279516
 20
-145.8688852465
 10
424.9358251341
 20
-146.5415903801
 10
423.2744092074
 20
-147.0517493812
 10
421.6476290998
 20
-147.3963685568
 10
420.0650320604
 20
-147.5734223593
 10
418.5359048838
 20
-147.58187667
 10
417.0692208974
 20
-147.421678338
 10
415.673588595
 20
-147.0937681033
 10
414.3571976362
 20
-146.6000691846
 10
413.427850407
 20
-146.1234447544
  0
LWPOLYLINE
  5
E7
330
1F
100
AcDbEntity
  8
0
  6
Continuous
 62
     1
370
    25
100
AcDbPolyline
 90
       57
 70
   128
 43
0.0
 10
363.1020226696
 20
-17.1920695796
 10
363.3016933644
 20
-17.3090231732
 10
364.8285604163
 20
-18.3226064414
 10
366.2583501052
 20
-19.4906625532
 10
367.5863077397
 20
-20.8093142226
 10
368.8080263401
 20
-22.2741822907
 10
369.9194440036
 20
-23.8803978931
 10
370.9168702471
 20
-25.6226267966
 10
371.7969912744
 20
-27.4950815677
 10
372.556883148
 20
-29.4915413457
 10
373.1940223253
 20
-31.6053754178
 10
373.7062935613
 20
-33.8295599501
 10
374.0919925429
 20
-36.1567076464
 10
374.3498390596
 20
-38.5790875207
 10
374.4789770034
 20
-41.088653225
 10
374.4789770034
 20
-43.6770677642
 10
374.3498390596
 20
-46.3357329647
 10
374.0919925429
 20
-49.0558160904
 10
373.7062935613
 20
-51.8282823519
 10
373.1940223253
 20
-54.643922664
 10
372.556883148
 20
-57.4933819719
 10
371.7969912744
 20
-60.3671942321
 10
370.9168702471
 20
-63.2558151117
 10
369.9194440036
 20
-66.1496478433
 10
368.8080263401
 20
-69.039078966
 10
367.5863077397
 20
-71.9145133054
 10
366.2583501052
 20
-74.7663922239
 10
364.8285604163
 20
-77.5852483722
 10
363.3016933644
 20
-80.3617148145
 10
361.6828144739
 20
-83.0865706531
 10
359.9773080046
 20
-85.7507608011
 10
358.1908374393
 20
-88.3454340019
 10
356.3293349469
 20
-90.8619793303
 10
354.3989855775
 20
-93.2920292331
 10
352.4062022375
 20
-95.6275135193
 10
350.3576046162
 20
-97.8606745676
 10
348.2599981127
 20
-99.9840947012
 10
346.1203507863
 20
-101.990715577
 10
343.9457696494
 20
-103.8738792489
 10
341.7434789353
 20
-105.6273224618
 10
339.5207944148
 20
-107.2452249392
 10
337.2850995244
 20
-108.7222109961
 10
335.0438209997
 20
-110.0533727316
 10
332.8044040157
 20
-111.2342904637
 10
330.5742881497
 20
-112.2610405217
 10
328.3608812043
 20
-113.1302133998
 10
326.171536158
 20
-113.8389179379
 10
324.0135259766
 20
-114.3848049879
 10
321.8940175998
 20
-114.7660550546
 10
319.8200541612
 20
-114.9814098523
 10
317.7985253534
 20
-115.0301437856
 10
315.8361443791
 20
-114.9121046313
 10
313.939430829
 20
-114.6276777955
 10
312.1146856569
 20
-114.1778129269
 10
310.3679701065
 20
-113.5640026227
 10
308.7050872719
 20
-112.7882839468
 10
308.1064913876
 20
-112.457447714
  0
LWPOLYLINE
  5
E8
330
1F
100
AcDbEntity
  8
0
  6
Continuous
 62
     1
370
    25
100
AcDbPolyline
 90
       45
 70
   128
 43
0.0
 10
370.8617184616
 20
-25.1474307831
 10
371.3042392976
 20
-25.9619478347
 10
372.1826533775
 20
-27.8307659122
 10
372.9410701114
 20
-29.8233502328
 10
373.576971225
 20
-31.9330799705
 10
374.0882467418
 20
-34.1529465011
 10
374.4731976168
 20
-36.4755754567
 10
374.7305436397
 20
-38.8932522013
 10
374.8594313366
 20
-41.3979447408
 10
374.8594313366
 20
-43.9813335709
 10
374.7305436397
 20
-46.6348366777
 10
374.4731976168
 20
-49.3496388158
 10
374.0882467418
 20
-52.1167225912
 10
373.576971225
 20
-54.9268952685
 10
372.9410701114
 20
-57.7708208042
 10
372.1826533775
 20
-60.639054447
 10
371.3042392976
 20
-63.5220678334
 10
370.308749175
 20
-66.4102824469
 10
369.1994915374
 20
-69.2941015561
 10
367.9801436973
 20
-72.1639527994
 10
366.6547649231
 20
-75.0102957901
 10
365.2277516578
 20
-77.8236768661
 10
363.7038480562
 20
-80.5947519045
 10
362.0881143742
 20
-83.3143182584
 10
360.3859190667
 20
-85.9733330067
 10
358.6029150797
 20
-88.5629722684
 10
356.7450279967
 20
-91.0746289201
 10
354.8184270626
 20
-93.4999627838
 10
352.8295133301
 20
-95.8309105114
 10
350.7848933177
 20
-98.0597372945
 10
348.6913605705
 20
-100.1790322991
 10
346.5558666843
 20
-102.181758854
 10
344.3855081348
 20
-104.0612650956
 10
342.1874933501
 20
-105.8113029767
 10
339.9691242718
 20
-107.4260632461
 10
337.7377700129
 20
-108.9001815294
 10
335.5008432326
 20
-110.2287610938
 10
333.2657743711
 20
-111.4073877216
 10
331.0399884353
 20
-112.4321431114
 10
328.8308791513
 20
-113.2996258838
 10
326.6457850098
 20
-114.0069562841
 10
324.49196383
 20
-114.5517817408
 10
322.3765726735
 20
-114.9322945447
 10
320.306635576
 20
-115.1472291843
 10
318.7738403064
 20
-115.1993648997
  0
LWPOLYLINE
  5
E9
330
1F
100
AcDbEntity
  8
0
  6
Continuous
 62
     1
370
    25
100
AcDbPolyline
 90
       37
 70
   128
 43
0.0
 10
403.5505718223
 20
-68.6282444727
 10
404.1050452246
 20
-69.4338647273
 10
404.8471748357
 20
-70.7606455283
 10
405.47222577
 20
-72.2148004823
 10
405.9766181796
 20
-73.7879999034
 10
406.357461054
 20
-75.4712331757
 10
406.612575928
 20
-77.2548578057
 10
406.7404995158
 20
-79.1286585481
 10
406.7404995158
 20
-81.0819017806
 10
406.612575928
 20
-83.1033999536
 10
406.357461054
 20
-85.1815739475
 10
405.9766181796
 20
-87.3045190431
 10
405.47222577
 20
-89.4600775444
 10
404.8471748357
 20
-91.635900946
 10
404.1050452246
 20
-93.8195263575
 10
403.2500885
 20
-95.9984453238
 10
402.2872002818
 20
-98.1601798685
 10
401.2218965389
 20
-100.2923463712
 10
400.0602793445
 20
-102.3827316098
 10
398.8090026325
 20
-104.4193619601
 10
397.4752340013
 20
-106.3905725939
 10
396.06661125
 20
-108.2850705935
 10
394.5912048415
 20
-110.0920083327
 10
393.0574645606
 20
-111.801031001
 10
391.4741760495
 20
-113.4023534061
 10
389.8504077952
 20
-114.8868027449
 10
388.1954614098
 20
-116.2458746832
 10
386.5188158182
 20
-117.4717838259
 10
384.8300745338
 20
-118.5575124056
 10
383.1389107111
 20
-119.4968359193
 10
381.4550110871
 20
-120.2843783043
 10
379.7880212397
 20
-120.9156268095
 10
378.1474887472
 20
-121.3869648088
 10
376.542811369
 20
-121.695695632
 10
374.9831797522
 20
-121.840048263
 10
373.4775277116
 20
-121.8191969168
 10
372.8766723611
 20
-121.762753354
  0
LWPOLYLINE
  5
EA
330
1F
100
AcDbEntity
  8
0
  6
Continuous
 62
     1
370
    25
100
AcDbPolyline
 90
       39
 70
   128
 43
0.0
 10
402.9015498679
 20
-67.758948241
 10
403.0815129598
 20
-67.946187289
 10
404.0090017765
 20
-69.0646201715
 10
404.8241349976
 20
-70.3250505912
 10
405.5221289557
 20
-71.7200787952
 10
406.0988875042
 20
-73.2415187767
 10
406.5510257241
 20
-74.8804431442
 10
406.8758896812
 20
-76.6272336942
 10
407.0715735475
 20
-78.4716393982
 10
407.1369301387
 20
-80.4028359099
 10
407.0715735475
 20
-82.4094915355
 10
406.8758896812
 20
-84.4798290225
 10
406.5510257241
 20
-86.6016995135
 10
406.0988875042
 20
-88.7626515581
 10
405.5221289557
 20
-90.9500027853
 10
404.8241349976
 20
-93.1509176597
 10
404.0090017765
 20
-95.3524808639
 10
403.0815129598
 20
-97.5417695403
 10
402.0471107593
 20
-99.705940742
 10
400.9118656383
 20
-101.8322915058
 10
399.6824394331
 20
-103.9083432608
 10
398.3660484743
 20
-105.9219148292
 10
396.970416172
 20
-107.8611878213
 10
395.5037321856
 20
-109.714783439
 10
393.9746050089
 20
-111.4718217869
 10
392.3920079695
 20
-113.1219956325
 10
390.7652278619
 20
-114.6556167897
 10
389.1038119352
 20
-116.0636877868
 10
387.4175091177
 20
-117.337946444
 10
385.7162160162
 20
-118.470912256
 10
384.00991633
 20
-119.455938098
 10
382.3086232284
 20
-120.2872434903
 10
380.6223204109
 20
-120.959948624
 10
378.9609044842
 20
-121.4701076251
 10
377.3341243767
 20
-121.8147268007
 10
375.7515273372
 20
-121.9917806031
 10
374.2224001606
 20
-122.0002349138
 10
372.7557161742
 20
-121.8400365819
 10
371.7993185707
 20
-121.6354317525
  0
ENDSEC
  0
SECTION
  2
OBJECTS
  0
DICTIONARY
  5
C
330
0
100
AcDbDictionary
281
     1
  3
ACAD_GROUP
350
D
  3
ACAD_LAYOUT
350
1A
  3
ACAD_MLINESTYLE
350
17
  3
ACAD_PLOTSETTINGS
350
19
  3
ACAD_PLOTSTYLENAME
350
E
  3
ACAD_SCALELIST
350
47
  0
DICTIONARY
  5
D
102
{ACAD_REACTORS
330
C
102
}
330
C
100
AcDbDictionary
281
     1
  0
DICTIONARY
  5
1A
102
{ACAD_REACTORS
330
C
102
}
330
C
100
AcDbDictionary
281
     1
  3
Layout1
350
1E
  3
Layout2
350
26
  3
Model
350
22
  0
DICTIONARY
  5
17
102
{ACAD_REACTORS
330
C
102
}
330
C
100
AcDbDictionary
281
     1
  3
Standard
350
18
  0
DICTIONARY
  5
19
102
{ACAD_REACTORS
330
C
102
}
330
C
100
AcDbDictionary
281
     1
  0
ACDBDICTIONARYWDFLT
  5
E
102
{ACAD_REACTORS
330
C
102
}
330
C
100
AcDbDictionary
281
     1
  3
Normal
350
F
100
AcDbDictionaryWithDefault
340
F
  0
DICTIONARY
  5
47
102
{ACAD_REACTORS
330
C
102
}
330
C
100
AcDbDictionary
281
     1
  3
A0
350
48
  3
A1
350
49
  3
A2
350
4A
  3
A3
350
4B
  3
A4
350
4C
  3
A5
350
4D
  3
A6
350
4E
  3
A7
350
4F
  3
A8
350
50
  3
A9
350
51
  3
B0
350
52
  3
B1
350
53
  3
B2
350
54
  3
B3
350
55
  3
B4
350
56
  3
B5
350
57
  3
B6
350
58
  3
B7
350
59
  3
B8
350
5A
  3
B9
350
5B
  3
C0
350
5C
  3
C1
350
5D
  3
C2
350
5E
  3
C3
350
5F
  3
C4
350
60
  3
C5
350
61
  3
C6
350
62
  3
C7
350
63
  3
C8
350
64
  3
C9
350
65
  3
D0
350
66
  3
D1
350
67
  3
D2
350
68
  0
LAYOUT
  5
1E
102
{ACAD_REACTORS
330
1A
102
}
330
1A
100
AcDbPlotSettings
  1

  2
none_device
  4

  6

 40
0.0
 41
0.0
 42
0.0
 43
0.0
 44
0.0
 45
0.0
 46
0.0
 47
0.0
 48
0.0
 49
0.0
140
0.0
141
0.0
142
1.0
143
1.0
 70
   688
 72
     1
 73
     0
 74
     5
  7

 75
    16
147
1.0
148
0.0
149
0.0
100
AcDbLayout
  1
Layout1
 70
     1
 71
     1
 10
0.0
 20
0.0
 11
420.0
 21
297.0
 12
0.0
 22
0.0
 32
0.0
 14
1.0000000000E+20
 24
1.0000000000E+20
 34
1.0000000000E+20
 15
-1.0000000000E+20
 25
-1.0000000000E+20
 35
-1.0000000000E+20
146
0.0
 13
0.0
 23
0.0
 33
0.0
 16
1.0
 26
0.0
 36
0.0
 17
0.0
 27
1.0
 37
0.0
 76
     0
330
1B
  0
LAYOUT
  5
26
102
{ACAD_REACTORS
330
1A
102
}
330
1A
100
AcDbPlotSettings
  1

  2
none_device
  4

  6

 40
0.0
 41
0.0
 42
0.0
 43
0.0
 44
0.0
 45
0.0
 46
0.0
 47
0.0
 48
0.0
 49
0.0
140
0.0
141
0.0
142
1.0
143
1.0
 70
   688
 72
     1
 73
     0
 74
     5
  7

 75
    16
147
1.0
148
0.0
149
0.0
100
AcDbLayout
  1
Layout2
 70
     1
 71
     2
 10
0.0
 20
0.0
 11
0.0
 21
0.0
 12
0.0
 22
0.0
 32
0.0
 14
0.0
 24
0.0
 34
0.0
 15
0.0
 25
0.0
 35
0.0
146
0.0
 13
0.0
 23
0.0
 33
0.0
 16
1.0
 26
0.0
 36
0.0
 17
0.0
 27
1.0
 37
0.0
 76
     0
330
23
  0
LAYOUT
  5
22
102
{ACAD_REACTORS
330
1A
102
}
330
1A
100
AcDbPlotSettings
  1

  2
none_device
  4
Letter_(8.50_x_11.00_Inches)
  6

 40
6.35
 41
6.35
 42
6.35000508
 43
6.35000508
 44
215.9
 45
279.4
 46
0.0
 47
0.0
 48
0.0
 49
0.0
140
0.0
141
0.0
142
1.0
143
1.0
 70
  1712
 72
     1
 73
     0
 74
     0
  7

 75
     0
147
1.0
148
0.0
149
0.0
100
AcDbLayout
  1
Model
 70
     1
 71
     0
 10
0.0
 20
0.0
 11
279.4
 21
215.9
 12
0.0
 22
0.0
 32
0.0
 14
0.0
 24
0.0
 34
0.0
 15
279.4
 25
215.9
 35
0.0
146
0.0
 13
0.0
 23
0.0
 33
0.0
 16
1.0
 26
0.0
 36
0.0
 17
0.0
 27
1.0
 37
0.0
 76
     0
330
1F
331
29
  0
MLINESTYLE
  5
18
102
{ACAD_REACTORS
330
17
102
}
330
17
100
AcDbMlineStyle
  2
Standard
 70
     0
  3

 62
   256
 51
90.0
 52
90.0
 71
     2
 49
0.5
 62
   256
  6
BYLAYER
 49
-0.5
 62
   256
  6
BYLAYER
  0
ACDBPLACEHOLDER
  5
F
102
{ACAD_REACTORS
330
E
102
}
330
E
  0
SCALE
  5
48
102
{ACAD_REACTORS
330
47
102
}
330
47
100
AcDbScale
 70
     0
300
1:1
140
1.0
141
1.0
290
     1
  0
SCALE
  5
49
102
{ACAD_REACTORS
330
47
102
}
330
47
100
AcDbScale
 70
     0
300
1:2
140
1.0
141
2.0
290
     0
  0
SCALE
  5
4A
102
{ACAD_REACTORS
330
47
102
}
330
47
100
AcDbScale
 70
     0
300
1:4
140
1.0
141
4.0
290
     0
  0
SCALE
  5
4B
102
{ACAD_REACTORS
330
47
102
}
330
47
100
AcDbScale
 70
     0
300
1:5
140
1.0
141
5.0
290
     0
  0
SCALE
  5
4C
102
{ACAD_REACTORS
330
47
102
}
330
47
100
AcDbScale
 70
     0
300
1:8
140
1.0
141
8.0
290
     0
  0
SCALE
  5
4D
102
{ACAD_REACTORS
330
47
102
}
330
47
100
AcDbScale
 70
     0
300
1:10
140
1.0
141
10.0
290
     0
  0
SCALE
  5
4E
102
{ACAD_REACTORS
330
47
102
}
330
47
100
AcDbScale
 70
     0
300
1:16
140
1.0
141
16.0
290
     0
  0
SCALE
  5
4F
102
{ACAD_REACTORS
330
47
102
}
330
47
100
AcDbScale
 70
     0
300
1:20
140
1.0
141
20.0
290
     0
  0
SCALE
  5
50
102
{ACAD_REACTORS
330
47
102
}
330
47
100
AcDbScale
 70
     0
300
1:30
140
1.0
141
30.0
290
     0
  0
SCALE
  5
51
102
{ACAD_REACTORS
330
47
102
}
330
47
100
AcDbScale
 70
     0
300
1:40
140
1.0
141
40.0
290
     0
  0
SCALE
  5
52
102
{ACAD_REACTORS
330
47
102
}
330
47
100
AcDbScale
 70
     0
300
1:50
140
1.0
141
50.0
290
     0
  0
SCALE
  5
53
102
{ACAD_REACTORS
330
47
102
}
330
47
100
AcDbScale
 70
     0
300
1:100
140
1.0
141
100.0
290
     0
  0
SCALE
  5
54
102
{ACAD_REACTORS
330
47
102
}
330
47
100
AcDbScale
 70
     0
300
2:1
140
2.0
141
1.0
290
     0
  0
SCALE
  5
55
102
{ACAD_REACTORS
330
47
102
}
330
47
100
AcDbScale
 70
     0
300
4:1
140
4.0
141
1.0
290
     0
  0
SCALE
  5
56
102
{ACAD_REACTORS
330
47
102
}
330
47
100
AcDbScale
 70
     0
300
8:1
140
8.0
141
1.0
290
     0
  0
SCALE
  5
57
102
{ACAD_REACTORS
330
47
102
}
330
47
100
AcDbScale
 70
     0
300
10:1
140
10.0
141
1.0
290
     0
  0
SCALE
  5
58
102
{ACAD_REACTORS
330
47
102
}
330
47
100
AcDbScale
 70
     0
300
100:1
140
100.0
141
1.0
290
     0
  0
SCALE
  5
59
102
{ACAD_REACTORS
330
47
102
}
330
47
100
AcDbScale
 70
     0
300
1/128" = 1'-0"
140
0.0078125
141
12.0
290
     0
  0
SCALE
  5
5A
102
{ACAD_REACTORS
330
47
102
}
330
47
100
AcDbScale
 70
     0
300
1/64" = 1'-0"
140
0.015625
141
12.0
290
     0
  0
SCALE
  5
5B
102
{ACAD_REACTORS
330
47
102
}
330
47
100
AcDbScale
 70
     0
300
1/32" = 1'-0"
140
0.03125
141
12.0
290
     0
  0
SCALE
  5
5C
102
{ACAD_REACTORS
330
47
102
}
330
47
100
AcDbScale
 70
     0
300
1/16" = 1'-0"
140
0.0625
141
12.0
290
     0
  0
SCALE
  5
5D
102
{ACAD_REACTORS
330
47
102
}
330
47
100
AcDbScale
 70
     0
300
3/32" = 1'-0"
140
0.09375
141
12.0
290
     0
  0
SCALE
  5
5E
102
{ACAD_REACTORS
330
47
102
}
330
47
100
AcDbScale
 70
     0
300
1/8" = 1'-0"
140
0.125
141
12.0
290
     0
  0
SCALE
  5
5F
102
{ACAD_REACTORS
330
47
102
}
330
47
100
AcDbScale
 70
     0
300
3/16" = 1'-0"
140
0.1875
141
12.0
290
     0
  0
SCALE
  5
60
102
{ACAD_REACTORS
330
47
102
}
330
47
100
AcDbScale
 70
     0
300
1/4" = 1'-0"
140
0.25
141
12.0
290
     0
  0
SCALE
  5
61
102
{ACAD_REACTORS
330
47
102
}
330
47
100
AcDbScale
 70
     0
300
3/8" = 1'-0"
140
0.375
141
12.0
290
     0
  0
SCALE
  5
62
102
{ACAD_REACTORS
330
47
102
}
330
47
100
AcDbScale
 70
     0
300
1/2" = 1'-0"
140
0.5
141
12.0
290
     0
  0
SCALE
  5
63
102
{ACAD_REACTORS
330
47
102
}
330
47
100
AcDbScale
 70
     0
300
3/4" = 1'-0"
140
0.75
141
12.0
290
     0
  0
SCALE
  5
64
102
{ACAD_REACTORS
330
47
102
}
330
47
100
AcDbScale
 70
     0
300
1" = 1'-0"
140
1.0
141
12.0
290
     0
  0
SCALE
  5
65
102
{ACAD_REACTORS
330
47
102
}
330
47
100
AcDbScale
 70
     0
300
1-1/2" = 1'-0"
140
1.5
141
12.0
290
     0
  0
SCALE
  5
66
102
{ACAD_REACTORS
330
47
102
}
330
47
100
AcDbScale
 70
     0
300
3" = 1'-0"
140
3.0
141
12.0
290
     0
  0
SCALE
  5
67
102
{ACAD_REACTORS
330
47
102
}
330
47
100
AcDbScale
 70
     0
300
6" = 1'-0"
140
6.0
141
12.0
290
     0
  0
SCALE
  5
68
102
{ACAD_REACTORS
330
47
102
}
330
47
100
AcDbScale
 70
     0
300
1'-0" = 1'-0"
140
12.0
141
12.0
290
     0
  0
ENDSEC
  0
EOF
